0
SECTION
2
HEADER
9
$INSUNITS
70
4
9
$ACADVER
1
AC1014
9
$HANDSEED
5
FFFF
0
ENDSEC
0
SECTION
2
TABLES
0
TABLE
2
VPORT
5
8
100
AcDbSymbolTable
0
ENDTAB
0
TABLE
2
LTYPE
5
5
100
AcDbSymbolTable
0
LTYPE
5
14
100
AcDbSymbolTableRecord
100
AcDbLinetypeTableRecord
2
BYBLOCK
70
0
0
LTYPE
5
15
100
AcDbSymbolTableRecord
100
AcDbLinetypeTableRecord
2
BYLAYER
70
0
0
ENDTAB
0
TABLE
2
LAYER
5
2
100
AcDbSymbolTable
70
2
0
LAYER
5
50
100
AcDbSymbolTableRecord
100
AcDbLayerTableRecord
2
0
70
0
6
CONTINUOUS
0
ENDTAB
0
TABLE
2
STYLE
5
3
100
AcDbSymbolTable
70
1
0
STYLE
5
11
100
AcDbSymbolTableRecord
100
AcDbTextStyleTableRecord
2
STANDARD
70
0
0
ENDTAB
0
TABLE
2
VIEW
5
6
100
AcDbSymbolTable
70
0
0
ENDTAB
0
TABLE
2
UCS
5
7
100
AcDbSymbolTable
70
0
0
ENDTAB
0
TABLE
2
APPID
5
9
100
AcDbSymbolTable
70
2
0
APPID
5
12
100
AcDbSymbolTableRecord
100
AcDbRegAppTableRecord
2
ACAD
70
0
0
ENDTAB
0
TABLE
2
DIMSTYLE
5
A
100
AcDbSymbolTable
70
1
0
ENDTAB
0
TABLE
2
BLOCK_RECORD
5
1
100
AcDbSymbolTable
70
1
0
BLOCK_RECORD
5
1F
100
AcDbSymbolTableRecord
100
AcDbBlockTableRecord
2
*MODEL_SPACE
0
BLOCK_RECORD
5
1B
100
AcDbSymbolTableRecord
100
AcDbBlockTableRecord
2
*PAPER_SPACE
0
ENDTAB
0
ENDSEC
0
SECTION
2
BLOCKS
0
BLOCK
5
20
100
AcDbEntity
100
AcDbBlockBegin
2
*MODEL_SPACE
0
ENDBLK
5
21
100
AcDbEntity
100
AcDbBlockEnd
0
BLOCK
5
1C
100
AcDbEntity
100
AcDbBlockBegin
2
*PAPER_SPACE
0
ENDBLK
5
1D
100
AcDbEntity
100
AcDbBlockEnd
0
ENDSEC
0
SECTION
2
ENTITIES
0
LINE
5
100
100
AcDbEntity
8
0
100
AcDbLine
10
3505.1983840747453
20
-76.199774641879173
30
0
11
228.59932392563735
21
-76.199774641879173
31
0
0
LINE
5
101
100
AcDbEntity
8
0
100
AcDbLine
10
685.802347051065
20
-2552.7012010512581
30
0
11
1219.2007695442194
21
-2552.7012010512581
31
0
0
LINE
5
102
100
AcDbEntity
8
0
100
AcDbLine
10
76.199774641879173
20
-152.39954928375838
30
0
11
76.199774641879173
21
-3352.7988347909895
31
0
0
LINE
5
103
100
AcDbEntity
8
0
100
AcDbLine
10
1524.0042433858887
20
-2514.6013137303175
30
0
11
990.60144561858169
21
-2514.6013137303175
31
0
0
LINE
5
104
100
AcDbEntity
8
0
100
AcDbLine
10
609.60257240918588
20
-2781.3005249768953
30
0
11
152.39954928375838
21
-2781.3005249768953
31
0
0
LINE
5
105
100
AcDbEntity
8
0
100
AcDbLine
10
2133.6024405209218
20
-2667.0008630140751
30
0
11
1600.2040180277677
21
-2667.0008630140751
31
0
0
LINE
5
106
100
AcDbEntity
8
0
100
AcDbLine
10
1905.0031165952846
20
-2628.9009756931359
30
0
11
2438.4015390884388
21
-2628.9009756931359
31
0
0
LINE
5
107
100
AcDbEntity
8
0
100
AcDbLine
10
3657.6066839068103
20
-3352.7988347909895
30
0
11
3657.6066839068103
21
-152.39954928375823
31
0
0
LINE
5
108
100
AcDbEntity
8
0
100
AcDbLine
10
3276.6078106974137
20
-2667.0008630140751
30
0
11
2819.4004122978345
21
-2667.0008630140751
31
0
0
LINE
5
109
100
AcDbEntity
8
0
100
AcDbLine
10
381.00324848354853
20
-2514.6013137303175
30
0
11
76.199774641879188
21
-2514.6013137303175
31
0
0
LINE
5
110
100
AcDbEntity
8
0
100
AcDbLine
10
3124.1995108653527
20
-2628.9009756931359
30
0
11
3581.4069092649315
21
-2628.9009756931359
31
0
0
LINE
5
111
100
AcDbEntity
8
0
100
AcDbLine
10
3124.1995108653527
20
-2552.7012010512581
30
0
11
3581.4069092649315
21
-2552.7012010512581
31
0
0
LINE
5
112
100
AcDbEntity
8
0
100
AcDbLine
10
3276.6078106974137
20
-2514.6013137303175
30
0
11
2819.4004122978345
21
-2514.6013137303175
31
0
0
LINE
5
113
100
AcDbEntity
8
0
100
AcDbLine
10
1524.0042433858887
20
-2667.0008630140751
30
0
11
990.60144561858169
21
-2667.0008630140751
31
0
0
LINE
5
114
100
AcDbEntity
8
0
100
AcDbLine
10
609.60257240918588
20
-2552.7012010512581
30
0
11
152.39954928375838
21
-2552.7012010512581
31
0
0
LINE
5
115
100
AcDbEntity
8
0
100
AcDbLine
10
3276.6078106974137
20
-2590.8010883721972
30
0
11
2819.4004122978345
21
-2590.8010883721972
31
0
0
LINE
5
116
100
AcDbEntity
8
0
100
AcDbLine
10
2743.2006376559557
20
-2590.8010883721972
30
0
11
2209.8022151628011
21
-2590.8010883721972
31
0
0
LINE
5
117
100
AcDbEntity
8
0
100
AcDbLine
10
3657.6066839068103
20
-2667.0008630140751
30
0
11
3352.8075853392947
21
-2667.0008630140751
31
0
0
LINE
5
118
100
AcDbEntity
8
0
100
AcDbLine
10
3657.6066839068103
20
-2590.8010883721972
30
0
11
3352.8075853392947
21
-2590.8010883721972
31
0
0
LINE
5
119
100
AcDbEntity
8
0
100
AcDbLine
10
1524.0042433858887
20
-2590.8010883721972
30
0
11
990.60144561858169
21
-2590.8010883721972
31
0
0
LINE
5
120
100
AcDbEntity
8
0
100
AcDbLine
10
381.00324848354853
20
-2590.8010883721972
30
0
11
76.199774641879188
21
-2590.8010883721972
31
0
0
LINE
5
121
100
AcDbEntity
8
0
100
AcDbLine
10
1295.4005441860986
20
-2476.5014264093784
30
0
11
1828.8033419534052
21
-2476.5014264093784
31
0
0
LINE
5
122
100
AcDbEntity
8
0
100
AcDbLine
10
2133.6024405209218
20
-2514.6013137303175
30
0
11
1600.2040180277677
21
-2514.6013137303175
31
0
0
LINE
5
123
100
AcDbEntity
8
0
100
AcDbLine
10
914.4016709767028
20
-2590.8010883721972
30
0
11
457.20302312542765
21
-2590.8010883721972
31
0
0
LINE
5
124
100
AcDbEntity
8
0
100
AcDbLine
10
1905.0031165952846
20
-2552.7012010512581
30
0
11
2438.4015390884388
21
-2552.7012010512581
31
0
0
LINE
5
125
100
AcDbEntity
8
0
100
AcDbLine
10
609.60257240918588
20
-2476.5014264093784
30
0
11
152.39954928375838
21
-2476.5014264093784
31
0
0
LINE
5
126
100
AcDbEntity
8
0
100
AcDbLine
10
2514.6013137303175
20
-2628.9009756931359
30
0
11
3047.9997362234712
21
-2628.9009756931359
31
0
0
LINE
5
127
100
AcDbEntity
8
0
100
AcDbLine
10
3124.1995108653527
20
-2476.5014264093784
30
0
11
3581.4069092649315
21
-2476.5014264093784
31
0
0
LINE
5
128
100
AcDbEntity
8
0
100
AcDbLine
10
914.4016709767028
20
-2514.6013137303175
30
0
11
457.20302312542765
21
-2514.6013137303175
31
0
0
LINE
5
129
100
AcDbEntity
8
0
100
AcDbLine
10
1295.4005441860986
20
-2552.7012010512581
30
0
11
1828.8033419534052
21
-2552.7012010512581
31
0
0
LINE
5
130
100
AcDbEntity
8
0
100
AcDbLine
10
914.4016709767028
20
-2667.0008630140751
30
0
11
457.20302312542765
21
-2667.0008630140751
31
0
0
LINE
5
131
100
AcDbEntity
8
0
100
AcDbLine
10
3657.6066839068103
20
-2514.6013137303175
30
0
11
3352.8075853392947
21
-2514.6013137303175
31
0
0
LINE
5
132
100
AcDbEntity
8
0
100
AcDbLine
10
2514.6013137303175
20
-2476.5014264093784
30
0
11
3047.9997362234712
21
-2476.5014264093784
31
0
0
LINE
5
133
100
AcDbEntity
8
0
100
AcDbLine
10
2514.6013137303175
20
-2552.7012010512581
30
0
11
3047.9997362234712
21
-2552.7012010512581
31
0
0
LINE
5
134
100
AcDbEntity
8
0
100
AcDbLine
10
2743.2006376559557
20
-2514.6013137303175
30
0
11
2209.8022151628011
21
-2514.6013137303175
31
0
0
LINE
5
135
100
AcDbEntity
8
0
100
AcDbLine
10
2743.2006376559557
20
-2819.4004122978345
30
0
11
2209.8022151628011
21
-2819.4004122978345
31
0
0
LINE
5
136
100
AcDbEntity
8
0
100
AcDbLine
10
3657.6066839068103
20
-2819.4004122978345
30
0
11
3352.8075853392947
21
-2819.4004122978345
31
0
0
LINE
5
137
100
AcDbEntity
8
0
100
AcDbLine
10
1524.0042433858887
20
-2895.6001869397151
30
0
11
990.60144561858169
21
-2895.6001869397151
31
0
0
LINE
5
138
100
AcDbEntity
8
0
100
AcDbLine
10
3124.1995108653527
20
-2705.1007503350174
30
0
11
3581.4069092649315
21
-2705.1007503350174
31
0
0
LINE
5
139
100
AcDbEntity
8
0
100
AcDbLine
10
1295.4005441860986
20
-2628.9009756931359
30
0
11
1828.8033419534052
21
-2628.9009756931359
31
0
0
LINE
5
140
100
AcDbEntity
8
0
100
AcDbLine
10
2514.6013137303175
20
-2705.1007503350174
30
0
11
3047.9997362234712
21
-2705.1007503350174
31
0
0
LINE
5
141
100
AcDbEntity
8
0
100
AcDbLine
10
1905.0031165952846
20
-2857.5002996187736
30
0
11
2438.4015390884388
21
-2857.5002996187736
31
0
0
LINE
5
142
100
AcDbEntity
8
0
100
AcDbLine
10
1905.0031165952846
20
-2781.3005249768953
30
0
11
2438.4015390884388
21
-2781.3005249768953
31
0
0
LINE
5
143
100
AcDbEntity
8
0
100
AcDbLine
10
3276.6078106974137
20
-2438.4015390884388
30
0
11
2819.4004122978345
21
-2438.4015390884388
31
0
0
LINE
5
144
100
AcDbEntity
8
0
100
AcDbLine
10
2133.6024405209218
20
-2362.2017644465595
30
0
11
1600.2040180277677
21
-2362.2017644465595
31
0
0
LINE
5
145
100
AcDbEntity
8
0
100
AcDbLine
10
1295.4005441860986
20
-2400.3016517674992
30
0
11
1828.8033419534052
21
-2400.3016517674992
31
0
0
LINE
5
146
100
AcDbEntity
8
0
100
AcDbLine
10
1524.0042433858887
20
-2743.2006376559557
30
0
11
990.60144561858169
21
-2743.2006376559557
31
0
0
LINE
5
147
100
AcDbEntity
8
0
100
AcDbLine
10
685.802347051065
20
-2628.9009756931359
30
0
11
1219.2007695442194
21
-2628.9009756931359
31
0
0
LINE
5
148
100
AcDbEntity
8
0
100
AcDbLine
10
2133.6024405209218
20
-2438.4015390884388
30
0
11
1600.2040180277677
21
-2438.4015390884388
31
0
0
LINE
5
149
100
AcDbEntity
8
0
100
AcDbLine
10
1295.4005441860986
20
-2781.3005249768953
30
0
11
1828.8033419534052
21
-2781.3005249768953
31
0
0
LINE
5
150
100
AcDbEntity
8
0
100
AcDbLine
10
1905.0031165952846
20
-2705.1007503350174
30
0
11
2438.4015390884388
21
-2705.1007503350174
31
0
0
LINE
5
151
100
AcDbEntity
8
0
100
AcDbLine
10
381.00324848354853
20
-2819.4004122978345
30
0
11
76.199774641879188
21
-2819.4004122978345
31
0
0
LINE
5
152
100
AcDbEntity
8
0
100
AcDbLine
10
2514.6013137303175
20
-2857.5002996187736
30
0
11
3047.9997362234712
21
-2857.5002996187736
31
0
0
LINE
5
153
100
AcDbEntity
8
0
100
AcDbLine
10
3276.6078106974137
20
-2895.6001869397151
30
0
11
2819.4004122978345
21
-2895.6001869397151
31
0
0
LINE
5
154
100
AcDbEntity
8
0
100
AcDbLine
10
3124.1995108653527
20
-2857.5002996187736
30
0
11
3581.4069092649315
21
-2857.5002996187736
31
0
0
LINE
5
155
100
AcDbEntity
8
0
100
AcDbLine
10
914.4016709767028
20
-2819.4004122978345
30
0
11
457.20302312542765
21
-2819.4004122978345
31
0
0
LINE
5
156
100
AcDbEntity
8
0
100
AcDbLine
10
3124.1995108653527
20
-2781.3005249768953
30
0
11
3581.4069092649315
21
-2781.3005249768953
31
0
0
LINE
5
157
100
AcDbEntity
8
0
100
AcDbLine
10
609.60257240918588
20
-2705.1007503350174
30
0
11
152.39954928375838
21
-2705.1007503350174
31
0
0
LINE
5
158
100
AcDbEntity
8
0
100
AcDbLine
10
3276.6078106974137
20
-2362.2017644465595
30
0
11
2819.4004122978345
21
-2362.2017644465595
31
0
0
LINE
5
159
100
AcDbEntity
8
0
100
AcDbLine
10
381.00324848354853
20
-2362.2017644465595
30
0
11
76.199774641879188
21
-2362.2017644465595
31
0
0
LINE
5
160
100
AcDbEntity
8
0
100
AcDbLine
10
381.00324848354853
20
-2438.4015390884388
30
0
11
76.199774641879188
21
-2438.4015390884388
31
0
0
LINE
5
161
100
AcDbEntity
8
0
100
AcDbLine
10
609.60257240918588
20
-2400.3016517674992
30
0
11
152.39954928375838
21
-2400.3016517674992
31
0
0
LINE
5
162
100
AcDbEntity
8
0
100
AcDbLine
10
914.4016709767028
20
-2743.2006376559557
30
0
11
457.20302312542765
21
-2743.2006376559557
31
0
0
LINE
5
163
100
AcDbEntity
8
0
100
AcDbLine
10
3657.6066839068103
20
-2743.2006376559557
30
0
11
3352.8075853392947
21
-2743.2006376559557
31
0
0
LINE
5
164
100
AcDbEntity
8
0
100
AcDbLine
10
914.4016709767028
20
-2895.6001869397151
30
0
11
457.20302312542765
21
-2895.6001869397151
31
0
0
LINE
5
165
100
AcDbEntity
8
0
100
AcDbLine
10
1524.0042433858887
20
-2438.4015390884388
30
0
11
990.60144561858169
21
-2438.4015390884388
31
0
0
LINE
5
166
100
AcDbEntity
8
0
100
AcDbLine
10
2743.2006376559557
20
-2743.2006376559557
30
0
11
2209.8022151628011
21
-2743.2006376559557
31
0
0
LINE
5
167
100
AcDbEntity
8
0
100
AcDbLine
10
2743.2006376559557
20
-2895.6001869397151
30
0
11
2209.8022151628011
21
-2895.6001869397151
31
0
0
LINE
5
168
100
AcDbEntity
8
0
100
AcDbLine
10
1905.0031165952846
20
-2476.5014264093784
30
0
11
2438.4015390884388
21
-2476.5014264093784
31
0
0
LINE
5
169
100
AcDbEntity
8
0
100
AcDbLine
10
685.802347051065
20
-2857.5002996187736
30
0
11
1219.2007695442194
21
-2857.5002996187736
31
0
0
LINE
5
170
100
AcDbEntity
8
0
100
AcDbLine
10
1524.0042433858887
20
-2819.4004122978345
30
0
11
990.60144561858169
21
-2819.4004122978345
31
0
0
LINE
5
171
100
AcDbEntity
8
0
100
AcDbLine
10
2514.6013137303175
20
-3009.8998489025325
30
0
11
3047.9997362234712
21
-3009.8998489025325
31
0
0
LINE
5
172
100
AcDbEntity
8
0
100
AcDbLine
10
3657.6066839068103
20
-2362.2017644465595
30
0
11
3352.8075853392947
21
-2362.2017644465595
31
0
0
LINE
5
173
100
AcDbEntity
8
0
100
AcDbLine
10
1524.0042433858887
20
-2362.2017644465595
30
0
11
990.60144561858169
21
-2362.2017644465595
31
0
0
LINE
5
174
100
AcDbEntity
8
0
100
AcDbLine
10
2133.6024405209218
20
-2895.6001869397151
30
0
11
1600.2040180277677
21
-2895.6001869397151
31
0
0
LINE
5
175
100
AcDbEntity
8
0
100
AcDbLine
10
1905.0031165952846
20
-2400.3016517674992
30
0
11
2438.4015390884388
21
-2400.3016517674992
31
0
0
LINE
5
176
100
AcDbEntity
8
0
100
AcDbLine
10
685.802347051065
20
-2476.5014264093784
30
0
11
1219.2007695442194
21
-2476.5014264093784
31
0
0
LINE
5
177
100
AcDbEntity
8
0
100
AcDbLine
10
2133.6024405209218
20
-2590.8010883721972
30
0
11
1600.2040180277677
21
-2590.8010883721972
31
0
0
LINE
5
178
100
AcDbEntity
8
0
100
AcDbLine
10
1295.4005441860986
20
-2705.1007503350174
30
0
11
1828.8033419534052
21
-2705.1007503350174
31
0
0
LINE
5
179
100
AcDbEntity
8
0
100
AcDbLine
10
1295.4005441860986
20
-2857.5002996187736
30
0
11
1828.8033419534052
21
-2857.5002996187736
31
0
0
LINE
5
180
100
AcDbEntity
8
0
100
AcDbLine
10
685.802347051065
20
-2781.3005249768953
30
0
11
1219.2007695442194
21
-2781.3005249768953
31
0
0
LINE
5
181
100
AcDbEntity
8
0
100
AcDbLine
10
381.00324848354853
20
-2667.0008630140751
30
0
11
76.199774641879188
21
-2667.0008630140751
31
0
0
LINE
5
182
100
AcDbEntity
8
0
100
AcDbLine
10
609.60257240918588
20
-2628.9009756931359
30
0
11
152.39954928375838
21
-2628.9009756931359
31
0
0
LINE
5
183
100
AcDbEntity
8
0
100
AcDbLine
10
685.802347051065
20
-2705.1007503350174
30
0
11
1219.2007695442194
21
-2705.1007503350174
31
0
0
LINE
5
184
100
AcDbEntity
8
0
100
AcDbLine
10
914.4016709767028
20
-2362.2017644465595
30
0
11
457.20302312542765
21
-2362.2017644465595
31
0
0
LINE
5
185
100
AcDbEntity
8
0
100
AcDbLine
10
3657.6066839068103
20
-2895.6001869397151
30
0
11
3352.8075853392947
21
-2895.6001869397151
31
0
0
LINE
5
186
100
AcDbEntity
8
0
100
AcDbLine
10
609.60257240918588
20
-2857.5002996187736
30
0
11
152.39954928375838
21
-2857.5002996187736
31
0
0
LINE
5
187
100
AcDbEntity
8
0
100
AcDbLine
10
381.00324848354853
20
-2895.6001869397151
30
0
11
76.199774641879188
21
-2895.6001869397151
31
0
0
LINE
5
188
100
AcDbEntity
8
0
100
AcDbLine
10
2133.6024405209218
20
-2819.4004122978345
30
0
11
1600.2040180277677
21
-2819.4004122978345
31
0
0
LINE
5
189
100
AcDbEntity
8
0
100
AcDbLine
10
2743.2006376559557
20
-2438.4015390884388
30
0
11
2209.8022151628011
21
-2438.4015390884388
31
0
0
LINE
5
190
100
AcDbEntity
8
0
100
AcDbLine
10
3276.6078106974137
20
-2819.4004122978345
30
0
11
2819.4004122978345
21
-2819.4004122978345
31
0
0
LINE
5
191
100
AcDbEntity
8
0
100
AcDbLine
10
2743.2006376559557
20
-2667.0008630140751
30
0
11
2209.8022151628011
21
-2667.0008630140751
31
0
0
LINE
5
192
100
AcDbEntity
8
0
100
AcDbLine
10
3124.1995108653527
20
-2400.3016517674992
30
0
11
3581.4069092649315
21
-2400.3016517674992
31
0
0
LINE
5
193
100
AcDbEntity
8
0
100
AcDbLine
10
2514.6013137303175
20
-2781.3005249768953
30
0
11
3047.9997362234712
21
-2781.3005249768953
31
0
0
LINE
5
194
100
AcDbEntity
8
0
100
AcDbLine
10
2133.6024405209218
20
-2743.2006376559557
30
0
11
1600.2040180277677
21
-2743.2006376559557
31
0
0
LINE
5
195
100
AcDbEntity
8
0
100
AcDbLine
10
2743.2006376559557
20
-2362.2017644465595
30
0
11
2209.8022151628011
21
-2362.2017644465595
31
0
0
LINE
5
196
100
AcDbEntity
8
0
100
AcDbLine
10
3581.3981587166268
20
-3962.4057824743277
30
0
11
3581.3981587166268
21
-4267.2048810418428
31
0
0
LINE
5
197
100
AcDbEntity
8
0
100
AcDbLine
10
3124.1995108653527
20
-3009.8998489025325
30
0
11
3581.4069092649315
21
-3009.8998489025325
31
0
0
LINE
5
198
100
AcDbEntity
8
0
100
AcDbLine
10
609.60257240918588
20
-2933.7000742606542
30
0
11
152.39954928375838
21
-2933.7000742606542
31
0
0
LINE
5
199
100
AcDbEntity
8
0
100
AcDbLine
10
1704.1059762805362
20
-5181.6001000257747
30
0
11
1704.1058827225891
21
-5257.8012423563277
31
0
0
LINE
5
200
100
AcDbEntity
8
0
100
AcDbLine
10
3581.3981587166268
20
-4876.8030781789976
30
0
11
3657.5964042631576
21
-4876.803078179044
31
0
0
LINE
5
201
100
AcDbEntity
8
0
100
AcDbLine
10
1524.0042433858887
20
-2971.7999615815934
30
0
11
990.60144561858169
21
-2971.7999615815934
31
0
0
LINE
5
202
100
AcDbEntity
8
0
100
AcDbLine
10
3657.6066839068103
20
-3962.4057824743277
30
0
11
3581.3981587166268
21
-3962.4057824743277
31
0
0
LINE
5
203
100
AcDbEntity
8
0
100
AcDbLine
10
1905.0031165952846
20
-2933.7000742606542
30
0
11
2438.4015390884388
21
-2933.7000742606542
31
0
0
LINE
5
204
100
AcDbEntity
8
0
100
AcDbLine
10
3581.3981587166268
20
-3352.7988347909895
30
0
11
3581.3981587166268
21
-3657.6066839068103
31
0
0
LINE
5
205
100
AcDbEntity
8
0
100
AcDbLine
10
2133.6024405209218
20
-2971.7999615815934
30
0
11
1600.2040180277677
21
-2971.7999615815934
31
0
0
LINE
5
206
100
AcDbEntity
8
0
100
AcDbLine
10
1295.4005441860986
20
-3009.8998489025325
30
0
11
1828.8033419534052
21
-3009.8998489025325
31
0
0
LINE
5
207
100
AcDbEntity
8
0
100
AcDbLine
10
3657.5957239946074
20
-5181.6034095163996
30
0
11
3332.0268154186615
21
-5181.6033000758598
31
0
0
LINE
5
208
100
AcDbEntity
8
0
100
AcDbLine
10
3332.0268154186615
20
-5181.6033000758598
30
0
11
3332.016704815268
21
-5257.800565728704
31
0
0
LINE
5
209
100
AcDbEntity
8
0
100
AcDbLine
10
2743.2006376559557
20
-2971.7999615815934
30
0
11
2209.8022151628011
21
-2971.7999615815934
31
0
0
LINE
5
210
100
AcDbEntity
8
0
100
AcDbLine
10
2355.2717871810419
20
-5257.8017168478254
30
0
11
2680.8598831727213
21
-5257.8016471888459
31
0
0
LINE
5
211
100
AcDbEntity
8
0
100
AcDbLine
10
1704.1058827225891
20
-5257.8012423563277
30
0
11
2029.693978714248
21
-5257.8011068885744
31
0
0
LINE
5
212
100
AcDbEntity
8
0
100
AcDbLine
10
3657.6066839068103
20
-4267.2048810418428
30
0
11
3657.6066839068103
21
-4572.0039796093615
31
0
0
LINE
5
213
100
AcDbEntity
8
0
100
AcDbLine
10
3276.6078106974137
20
-2971.7999615815934
30
0
11
2819.4004122978345
21
-2971.7999615815934
31
0
0
LINE
5
214
100
AcDbEntity
8
0
100
AcDbLine
10
3657.5964042631576
20
-4876.803078179044
30
0
11
3657.5957239946074
21
-5181.6034095163996
31
0
0
LINE
5
215
100
AcDbEntity
8
0
100
AcDbLine
10
152.40829983206356
20
-4572.0039796093615
30
0
11
152.40829983206356
21
-4876.803078175275
31
0
0
LINE
5
216
100
AcDbEntity
8
0
100
AcDbLine
10
2029.6939793616489
20
-5181.6030511868357
30
0
11
2029.693978714248
21
-5257.8011068885744
31
0
0
LINE
5
217
100
AcDbEntity
8
0
100
AcDbLine
10
1052.9370705159688
20
-5181.6015920158961
30
0
11
1052.9369608328579
21
-5257.8010751960865
31
0
0
LINE
5
218
100
AcDbEntity
8
0
100
AcDbLine
10
152.40829983206356
20
-4572.0039796093615
30
0
11
76.199774641879173
21
-4572.0039796093615
31
0
0
LINE
5
219
100
AcDbEntity
8
0
100
AcDbLine
10
2680.8597847638976
20
-5181.6005848023724
30
0
11
2680.8598831727213
21
-5257.8016471888459
31
0
0
LINE
5
220
100
AcDbEntity
8
0
100
AcDbLine
10
1704.1059762805362
20
-5181.6001000257747
30
0
11
1378.5370677048136
21
-5181.600496781889
31
0
0
LINE
5
221
100
AcDbEntity
8
0
100
AcDbLine
10
401.78218205238664
20
-5181.6013031539533
30
0
11
401.78219531528816
21
-5257.8019512513656
31
0
0
LINE
5
222
100
AcDbEntity
8
0
100
AcDbLine
10
76.199774641879173
20
-4572.0039796093615
30
0
11
76.199774641879173
21
-4267.2048810418428
31
0
0
LINE
5
223
100
AcDbEntity
8
0
100
AcDbLine
10
3581.3981587166268
20
-4267.2048810418428
30
0
11
3657.6066839068103
21
-4267.2048810418428
31
0
0
LINE
5
224
100
AcDbEntity
8
0
100
AcDbLine
10
1052.9370705159688
20
-5181.6015920158961
30
0
11
727.36816194005451
21
-5181.6017728710085
31
0
0
LINE
5
225
100
AcDbEntity
8
0
100
AcDbLine
10
3581.3981587166268
20
-4572.0039796093615
30
0
11
3581.3981587166268
21
-4876.8030781789976
31
0
0
LINE
5
226
100
AcDbEntity
8
0
100
AcDbLine
10
3006.4286088236086
20
-5257.8007011221907
30
0
11
3332.016704815268
21
-5257.800565728704
31
0
0
LINE
5
227
100
AcDbEntity
8
0
100
AcDbLine
10
76.199774641879173
20
-3962.4057824743277
30
0
11
76.199774641879173
21
-3657.6066839068103
31
0
0
LINE
5
228
100
AcDbEntity
8
0
100
AcDbLine
10
3657.6066839068103
20
-4572.0039796093615
30
0
11
3581.3981587166268
21
-4572.0039796093615
31
0
0
LINE
5
229
100
AcDbEntity
8
0
100
AcDbLine
10
3657.6066839068103
20
-3657.6066839068103
30
0
11
3657.6066839068103
21
-3962.4057824743277
31
0
0
LINE
5
230
100
AcDbEntity
8
0
100
AcDbLine
10
3657.6066839068103
20
-3352.7988347909895
30
0
11
3581.3981587166268
21
-3352.7988347909895
31
0
0
LINE
5
231
100
AcDbEntity
8
0
100
AcDbLine
10
381.00324848354853
20
-2971.7999615815934
30
0
11
76.199774641879188
21
-2971.7999615815934
31
0
0
LINE
5
232
100
AcDbEntity
8
0
100
AcDbLine
10
152.40829983206356
20
-3962.4057824743277
30
0
11
76.199774641879173
21
-3962.4057824743277
31
0
0
LINE
5
233
100
AcDbEntity
8
0
100
AcDbLine
10
914.4016709767028
20
-2438.4015390884388
30
0
11
457.20302312542765
21
-2438.4015390884388
31
0
0
LINE
5
234
100
AcDbEntity
8
0
100
AcDbLine
10
2514.6013137303175
20
-2933.7000742606542
30
0
11
3047.9997362234712
21
-2933.7000742606542
31
0
0
LINE
5
235
100
AcDbEntity
8
0
100
AcDbLine
10
685.802347051065
20
-3009.8998489025325
30
0
11
1219.2007695442194
21
-3009.8998489025325
31
0
0
LINE
5
236
100
AcDbEntity
8
0
100
AcDbLine
10
381.00324848354853
20
-2743.2006376559557
30
0
11
76.199774641879188
21
-2743.2006376559557
31
0
0
LINE
5
237
100
AcDbEntity
8
0
100
AcDbLine
10
685.802347051065
20
-2933.7000742606542
30
0
11
1219.2007695442194
21
-2933.7000742606542
31
0
0
LINE
5
238
100
AcDbEntity
8
0
100
AcDbLine
10
2355.2628879375829
20
-5181.6031914495716
30
0
11
2029.6939793616489
21
-5181.6030511868357
31
0
0
LINE
5
239
100
AcDbEntity
8
0
100
AcDbLine
10
3657.6066839068103
20
-2971.7999615815934
30
0
11
3352.8075853392947
21
-2971.7999615815934
31
0
0
LINE
5
240
100
AcDbEntity
8
0
100
AcDbLine
10
914.4016709767028
20
-2971.7999615815934
30
0
11
457.20302312542765
21
-2971.7999615815934
31
0
0
LINE
5
241
100
AcDbEntity
8
0
100
AcDbLine
10
3006.4286933397334
20
-5181.6002948095302
30
0
11
2680.8597847638976
21
-5181.6005848023724
31
0
0
LINE
5
242
100
AcDbEntity
8
0
100
AcDbLine
10
1295.4005441860986
20
-2933.7000742606542
30
0
11
1828.8033419534052
21
-2933.7000742606542
31
0
0
LINE
5
243
100
AcDbEntity
8
0
100
AcDbLine
10
3124.1995108653527
20
-2933.7000742606542
30
0
11
3581.4069092649315
21
-2933.7000742606542
31
0
0
LINE
5
244
100
AcDbEntity
8
0
100
AcDbLine
10
609.60257240918588
20
-3009.8998489025325
30
0
11
152.39954928375838
21
-3009.8998489025325
31
0
0
LINE
5
245
100
AcDbEntity
8
0
100
AcDbLine
10
1905.0031165952846
20
-3009.8998489025325
30
0
11
2438.4015390884388
21
-3009.8998489025325
31
0
0
LINE
5
246
100
AcDbEntity
8
0
100
AcDbLine
10
3657.6066839068103
20
-2438.4015390884388
30
0
11
3352.8075853392947
21
-2438.4015390884388
31
0
0
LINE
5
247
100
AcDbEntity
8
0
100
AcDbLine
10
685.802347051065
20
-2400.3016517674992
30
0
11
1219.2007695442194
21
-2400.3016517674992
31
0
0
LINE
5
248
100
AcDbEntity
8
0
100
AcDbLine
10
3276.6078106974137
20
-2743.2006376559557
30
0
11
2819.4004122978345
21
-2743.2006376559557
31
0
0
LINE
5
249
100
AcDbEntity
8
0
100
AcDbLine
10
3006.4286933397334
20
-5181.6002948095302
30
0
11
3006.4286088236086
21
-5257.8007011221907
31
0
0
LINE
5
250
100
AcDbEntity
8
0
100
AcDbLine
10
2514.6013137303175
20
-2400.3016517674992
30
0
11
3047.9997362234712
21
-2400.3016517674992
31
0
0
LINE
5
251
100
AcDbEntity
8
0
100
AcDbLine
10
2352.3180201358109
20
-5181.6021767443945
30
0
11
2352.3180201358109
21
-5257.8019513862719
31
0
0
LINE
5
252
100
AcDbEntity
8
0
100
AcDbLine
10
3581.3981587166268
20
-3657.6066839068103
30
0
11
3657.6066839068103
21
-3657.6066839068103
31
0
0
LINE
5
253
100
AcDbEntity
8
0
100
AcDbLine
10
295.40054418609543
20
-6095.3029104463694
30
0
11
295.40054418609543
21
-6019.1031358044884
31
0
0
LINE
5
254
100
AcDbEntity
8
0
100
AcDbLine
10
76.199774641879173
20
-4267.2048810418428
30
0
11
152.40829983206356
21
-4267.2048810418428
31
0
0
LINE
5
255
100
AcDbEntity
8
0
100
AcDbLine
10
143.0065348228959
20
-5714.3040372369724
30
0
11
219.20076954421688
21
-5714.3040372369724
31
0
0
LINE
5
256
100
AcDbEntity
8
0
100
AcDbLine
10
3073.2293664864064
20
-5561.9056246392374
30
0
11
3398.8174624777344
21
-5561.905141159873
31
0
0
LINE
5
257
100
AcDbEntity
8
0
100
AcDbLine
10
219.20076954421688
20
-5714.3040372369724
30
0
11
219.20076954421688
21
-5866.7035865207326
31
0
0
LINE
5
258
100
AcDbEntity
8
0
100
AcDbLine
10
143.0065348228959
20
-5714.3040372369724
30
0
11
143.00627240775157
21
-5485.7047133177721
31
0
0
LINE
5
259
100
AcDbEntity
8
0
100
AcDbLine
10
2747.660572297742
20
-5485.7047133090191
30
0
11
2747.6606873447063
21
-5561.9061080867914
31
0
0
LINE
5
260
100
AcDbEntity
8
0
100
AcDbLine
10
2096.5038354876087
20
-5485.7047371479348
30
0
11
2096.4961242536906
21
-5561.905485626894
31
0
0
LINE
5
261
100
AcDbEntity
8
0
100
AcDbLine
10
3648.2037542512389
20
-5714.3040372369742
30
0
11
3648.203754251238
21
-5866.7035865207326
31
0
0
LINE
5
262
100
AcDbEntity
8
0
100
AcDbLine
10
3073.2294808737065
20
-5485.7047133096739
30
0
11
2747.660572297742
21
-5485.7047133090191
31
0
0
LINE
5
263
100
AcDbEntity
8
0
100
AcDbLine
10
152.40829983206356
20
-3962.4057824743277
30
0
11
152.40829983206356
21
-4267.2048810418428
31
0
0
LINE
5
264
100
AcDbEntity
8
0
100
AcDbLine
10
401.78218205238664
20
-5181.6013031539533
30
0
11
76.213273477191805
21
-5181.6020110364971
31
0
0
LINE
5
265
100
AcDbEntity
8
0
100
AcDbLine
10
76.199774641879173
20
-3657.6066839068103
30
0
11
152.40829983206356
21
-3657.6066839068103
31
0
0
LINE
5
266
100
AcDbEntity
8
0
100
AcDbLine
10
76.212435624970084
20
-4876.803078175275
30
0
11
152.40829983206356
21
-4876.803078175275
31
0
0
LINE
5
267
100
AcDbEntity
8
0
100
AcDbLine
10
143.00099490233663
20
-5866.7035865207326
30
0
11
143.00099490233663
21
-6019.1031358044884
31
0
0
LINE
5
268
100
AcDbEntity
8
0
100
AcDbLine
10
2422.0727440660148
20
-5485.7047361907371
30
0
11
2422.0725913533784
21
-5561.9065915646406
31
0
0
LINE
5
269
100
AcDbEntity
8
0
100
AcDbLine
10
3724.4035288931177
20
-5866.7035865207326
30
0
11
3724.4079041672699
21
-6019.1031358044893
31
0
0
LINE
5
270
100
AcDbEntity
8
0
100
AcDbLine
10
143.00099490233663
20
-6019.1031358044884
30
0
11
143.00099490233663
21
-6095.3029104463694
31
0
0
LINE
5
271
100
AcDbEntity
8
0
100
AcDbLine
10
1378.5370677048136
20
-5181.600496781889
30
0
11
1378.5371916789604
21
-5257.1194086184651
31
0
0
LINE
5
272
100
AcDbEntity
8
0
100
AcDbLine
10
3724.3863763124314
20
-5485.7047708523669
30
0
11
3398.8174677365078
21
-5485.7049350867128
31
0
0
LINE
5
273
100
AcDbEntity
8
0
100
AcDbLine
10
1052.9369608328579
20
-5257.8010751960865
30
0
11
1378.5250568244326
21
-5257.8008042619413
31
0
0
LINE
5
274
100
AcDbEntity
8
0
100
AcDbLine
10
152.40829983206356
20
-3352.7988347909895
30
0
11
76.199774641879173
21
-3352.7988347909895
31
0
0
LINE
5
275
100
AcDbEntity
8
0
100
AcDbLine
10
3724.4035288931177
20
-5714.3040372369742
30
0
11
3724.4035288931177
21
-5485.7047133113356
31
0
0
LINE
5
276
100
AcDbEntity
8
0
100
AcDbLine
10
152.40829983206356
20
-3352.7988347909895
30
0
11
152.40829983206356
21
-3657.6066839068103
31
0
0
LINE
5
277
100
AcDbEntity
8
0
100
AcDbLine
10
3724.4035288931177
20
-6095.3029104463694
30
0
11
3571.9996043352062
21
-6095.3029104463694
31
0
0
LINE
5
278
100
AcDbEntity
8
0
100
AcDbLine
10
1770.9080282621226
20
-5561.9057652979136
30
0
11
2096.4961242536906
21
-5561.905485626894
31
0
0
LINE
5
279
100
AcDbEntity
8
0
100
AcDbLine
10
3398.8174677365078
20
-5485.7049350867128
30
0
11
3398.8174624777344
21
-5561.905141159873
31
0
0
LINE
5
280
100
AcDbEntity
8
0
100
AcDbLine
10
1445.3392998803429
20
-5485.4806747779367
30
0
11
1445.3259273608692
21
-5561.9077823477
31
0
0
LINE
5
281
100
AcDbEntity
8
0
100
AcDbLine
10
76.199774641879173
20
-152.39954928375838
30
0
11
228.59932392563761
21
-152.39954928375838
31
0
0
LINE
5
282
100
AcDbEntity
8
0
100
AcDbLine
10
727.36816194005451
20
-5181.6017728710085
30
0
11
727.37029130697522
21
-5257.8019510931108
31
0
0
LINE
5
283
100
AcDbEntity
8
0
100
AcDbLine
10
3648.2037542512389
20
-5714.3040372369742
30
0
11
3724.4035288931177
21
-5714.3040372369742
31
0
0
LINE
5
284
100
AcDbEntity
8
0
100
AcDbLine
10
1119.7379736747534
20
-5485.7047230894368
30
0
11
1119.7378313694908
21
-5561.9082305065231
31
0
0
LINE
5
285
100
AcDbEntity
8
0
100
AcDbLine
10
1770.9082034751323
20
-5485.5376398606331
30
0
11
1770.9080282621226
21
-5561.9057652979136
31
0
0
LINE
5
286
100
AcDbEntity
8
0
100
AcDbLine
10
794.16906509634771
20
-5485.7047235550071
30
0
11
794.16314375229319
21
-5561.9090088843395
31
0
0
LINE
5
287
100
AcDbEntity
8
0
100
AcDbLine
10
295.40054418609543
20
-6019.1031358044884
30
0
11
3571.9996043352066
21
-6019.1031358044893
31
0
0
LINE
5
288
100
AcDbEntity
8
0
100
AcDbLine
10
401.78219531528816
20
-5257.8019512513656
30
0
11
727.37029130697522
21
-5257.8019510931108
31
0
0
LINE
5
289
100
AcDbEntity
8
0
100
AcDbLine
10
219.20076954421688
20
-5866.7035865207326
30
0
11
143.00099490233663
21
-5866.7035865207326
31
0
0
LINE
5
290
100
AcDbEntity
8
0
100
AcDbLine
10
468.57518098615742
20
-5485.704713317733
30
0
11
143.00627240775157
21
-5485.7047133177721
31
0
0
LINE
5
291
100
AcDbEntity
8
0
100
AcDbLine
10
3724.4035288931177
20
-5866.7035865207326
30
0
11
3648.203754251238
21
-5866.7035865207326
31
0
0
LINE
5
292
100
AcDbEntity
8
0
100
AcDbLine
10
2422.0725913533784
20
-5561.9065915646406
30
0
11
2747.6606873447063
21
-5561.9061080867914
31
0
0
LINE
5
293
100
AcDbEntity
8
0
100
AcDbLine
10
76.213273477191805
20
-5181.6020110364971
30
0
11
76.212435624970084
21
-4876.803078175275
31
0
0
LINE
5
294
100
AcDbEntity
8
0
100
AcDbLine
10
1524.0042433858887
20
-3047.9997362234712
30
0
11
990.60144561858169
21
-3047.9997362234712
31
0
0
LINE
5
295
100
AcDbEntity
8
0
100
AcDbLine
10
3657.6066839068103
20
-2286.0019898046803
30
0
11
3352.8075853392947
21
-2286.0019898046803
31
0
0
LINE
5
296
100
AcDbEntity
8
0
100
AcDbLine
10
685.802347051065
20
-3086.0996235444104
30
0
11
1219.2007695442194
21
-3086.0996235444104
31
0
0
LINE
5
297
100
AcDbEntity
8
0
100
AcDbLine
10
3733.8064585486909
20
-838.21502215728128
30
0
11
3733.8064585486909
21
-533.40717304145937
31
0
0
LINE
5
298
100
AcDbEntity
8
0
100
AcDbLine
10
4267.2048810418428
20
-2705.1007503350174
30
0
11
4267.2048810418428
21
-4838.7119414042427
31
0
0
LINE
5
299
100
AcDbEntity
8
0
100
AcDbLine
10
2743.2006376559557
20
-2286.0019898046803
30
0
11
2209.8022151628011
21
-2286.0019898046803
31
0
0
LINE
5
300
100
AcDbEntity
8
0
100
AcDbLine
10
1119.7378313694908
20
-5561.9082305065231
30
0
11
1445.3259273608692
21
-5561.9077823477
31
0
0
LINE
5
301
100
AcDbEntity
8
0
100
AcDbLine
10
1295.4005441860986
20
-3086.0996235444104
30
0
11
1828.8033419534052
21
-3086.0996235444104
31
0
0
LINE
5
302
100
AcDbEntity
8
0
100
AcDbLine
10
3733.8064585486909
20
-3314.7164485666581
30
0
11
3810.0149837388744
21
-3314.7164485666581
31
0
0
LINE
5
303
100
AcDbEntity
8
0
100
AcDbLine
10
1119.7379736747534
20
-5485.7047230894368
30
0
11
794.16906509634771
21
-5485.7047235550071
31
0
0
LINE
5
304
100
AcDbEntity
8
0
100
AcDbLine
10
3276.6078106974137
20
-3047.9997362234712
30
0
11
2819.4004122978345
21
-3047.9997362234712
31
0
0
LINE
5
305
100
AcDbEntity
8
0
100
AcDbLine
10
468.57518098615742
20
-5485.704713317733
30
0
11
468.57504776096505
21
-5561.9094923591911
31
0
0
LINE
5
306
100
AcDbEntity
8
0
100
AcDbLine
10
1905.0031165952846
20
-2324.1018771256204
30
0
11
2438.4015390884388
21
-2324.1018771256204
31
0
0
LINE
5
307
100
AcDbEntity
8
0
100
AcDbLine
10
1524.0042433858887
20
-2286.0019898046803
30
0
11
990.60144561858169
21
-2286.0019898046803
31
0
0
LINE
5
308
100
AcDbEntity
8
0
100
AcDbLine
10
381.00324848354853
20
-3047.9997362234712
30
0
11
76.199774641879188
21
-3047.9997362234712
31
0
0
SPLINE
5
309
100
AcDbEntity
8
0
100
AcDbSpline
70
1064
71
3
72
8
73
4
74
0
42
0.000000001
43
0.0000000001
44
0.0000000001
40
0
40
0
40
0
40
0
40
1
40
1
40
1
40
1
10
3810.0062331905692
20
-304.79909856751658
30
0
10
3810.0062331905692
20
-178.44118104010107
30
0
10
3912.2476395887925
20
-76.199774641879173
30
0
10
4038.6055571162065
20
-76.199774641879173
30
0
0
LINE
5
310
100
AcDbEntity
8
0
100
AcDbLine
10
3810.0149837388744
20
-3619.5155471341764
30
0
11
3810.0149837388744
21
-3314.7164485666581
31
0
0
LINE
5
311
100
AcDbEntity
8
0
100
AcDbLine
10
914.4016709767028
20
-2286.0019898046803
30
0
11
457.20302312542765
21
-2286.0019898046803
31
0
0
LINE
5
312
100
AcDbEntity
8
0
100
AcDbLine
10
3810.0149837388744
20
-3619.5155471341764
30
0
11
3733.8064585486909
21
-3619.5155471341764
31
0
0
LINE
5
313
100
AcDbEntity
8
0
100
AcDbLine
10
3810.0149837388744
20
-533.40717304145937
30
0
11
3733.8064585486909
21
-533.40717304145937
31
0
0
LINE
5
314
100
AcDbEntity
8
0
100
AcDbLine
10
228.59932392563761
20
-152.39954928375838
30
0
11
228.59932392563735
21
-76.199774641879173
31
0
0
LINE
5
315
100
AcDbEntity
8
0
100
AcDbLine
10
3810.0149837388744
20
-1143.0141207247984
30
0
11
3733.8064585486909
21
-1143.0141207247984
31
0
0
LINE
5
316
100
AcDbEntity
8
0
100
AcDbLine
10
3724.4079041672699
20
-6019.1031358044893
30
0
11
3724.4035288931177
21
-6095.3029104463694
31
0
0
LINE
5
317
100
AcDbEntity
8
0
100
AcDbLine
10
3733.8064585486909
20
-1447.8132192923149
30
0
11
3810.0149837388744
21
-1447.8132192923149
31
0
0
LINE
5
318
100
AcDbEntity
8
0
100
AcDbLine
10
3073.2294808737065
20
-5485.7047133096739
30
0
11
3073.2293664864064
21
-5561.9056246392374
31
0
0
LINE
5
319
100
AcDbEntity
8
0
100
AcDbLine
10
4267.2048810418428
20
-304.79909856751658
30
0
11
4267.2048810418428
21
-2362.2105149948648
31
0
0
LINE
5
320
100
AcDbEntity
8
0
100
AcDbLine
10
3810.0149837388744
20
-4229.1137442692088
30
0
11
3810.0149837388744
21
-3924.3146457016946
31
0
0
LINE
5
321
100
AcDbEntity
8
0
100
AcDbLine
10
609.60257240918588
20
-2324.1018771256204
30
0
11
152.39954928375838
21
-2324.1018771256204
31
0
0
LINE
5
322
100
AcDbEntity
8
0
100
AcDbLine
10
609.60257240918588
20
-3086.0996235444104
30
0
11
152.39954928375838
21
-3086.0996235444104
31
0
0
LINE
5
323
100
AcDbEntity
8
0
100
AcDbLine
10
3276.6078106974137
20
-2286.0019898046803
30
0
11
2819.4004122978345
21
-2286.0019898046803
31
0
0
LINE
5
324
100
AcDbEntity
8
0
100
AcDbLine
10
3962.4057824743277
20
-4838.7119414042427
30
0
11
3810.0149837388744
21
-4838.7119414042427
31
0
0
LINE
5
325
100
AcDbEntity
8
0
100
AcDbLine
10
3733.8064585486909
20
-4533.9128428367267
30
0
11
3810.0149837388744
21
-4533.9128428367267
31
0
0
LINE
5
326
100
AcDbEntity
8
0
100
AcDbLine
10
2743.2006376559557
20
-3047.9997362234712
30
0
11
2209.8022151628011
21
-3047.9997362234712
31
0
0
LINE
5
327
100
AcDbEntity
8
0
100
AcDbLine
10
3810.0149837388744
20
-533.40717304145937
30
0
11
3810.0149837388744
21
-304.79909856751658
31
0
0
LINE
5
328
100
AcDbEntity
8
0
100
AcDbLine
10
143.00099490233663
20
-6095.3029104463694
30
0
11
295.40054418609543
21
-6095.3029104463694
31
0
0
LINE
5
329
100
AcDbEntity
8
0
100
AcDbLine
10
1295.4005441860986
20
-2324.1018771256204
30
0
11
1828.8033419534052
21
-2324.1018771256204
31
0
0
LINE
5
330
100
AcDbEntity
8
0
100
AcDbLine
10
3124.1995108653527
20
-3086.0996235444104
30
0
11
3581.4069092649315
21
-3086.0996235444104
31
0
0
LINE
5
331
100
AcDbEntity
8
0
100
AcDbLine
10
3962.4057824743277
20
-2362.2105149948648
30
0
11
3810.0149837388744
21
-2362.2105149948648
31
0
0
LINE
5
332
100
AcDbEntity
8
0
100
AcDbLine
10
381.00324848354853
20
-2286.0019898046803
30
0
11
76.199774641879188
21
-2286.0019898046803
31
0
0
LINE
5
333
100
AcDbEntity
8
0
100
AcDbLine
10
468.57504776096505
20
-5561.9094923591911
30
0
11
794.16314375229319
21
-5561.9090088843395
31
0
0
LINE
5
334
100
AcDbEntity
8
0
100
AcDbLine
10
3657.6066839068103
20
-152.39954928375823
30
0
11
3505.1983840747453
21
-152.39954928375838
31
0
0
LINE
5
335
100
AcDbEntity
8
0
100
AcDbLine
10
3657.6066839068103
20
-3047.9997362234712
30
0
11
3352.8075853392947
21
-3047.9997362234712
31
0
0
LINE
5
336
100
AcDbEntity
8
0
100
AcDbLine
10
3810.0149837388744
20
-4838.7119414042427
30
0
11
3810.0149837388744
21
-4533.9128428367267
31
0
0
LINE
5
337
100
AcDbEntity
8
0
100
AcDbLine
10
4114.805331758087
20
-2438.4015390884388
30
0
11
3962.4057824743277
21
-2438.4015390884388
31
0
0
LINE
5
338
100
AcDbEntity
8
0
100
AcDbLine
10
2133.6024405209218
20
-3047.9997362234712
30
0
11
1600.2040180277677
21
-3047.9997362234712
31
0
0
LINE
5
339
100
AcDbEntity
8
0
100
AcDbLine
10
2133.6024405209218
20
-2286.0019898046803
30
0
11
1600.2040180277677
21
-2286.0019898046803
31
0
0
LINE
5
340
100
AcDbEntity
8
0
100
AcDbLine
10
3571.9996043352062
20
-6095.3029104463694
30
0
11
3571.9996043352066
21
-6019.1031358044893
31
0
0
LINE
5
341
100
AcDbEntity
8
0
100
AcDbLine
10
3505.1983840747453
20
-152.39954928375838
30
0
11
3505.1983840747453
21
-76.199774641879173
31
0
0
LINE
5
342
100
AcDbEntity
8
0
100
AcDbLine
10
2422.0727440660148
20
-5485.7047361907371
30
0
11
2096.5038354876087
21
-5485.7047371479348
31
0
0
LINE
5
343
100
AcDbEntity
8
0
100
AcDbLine
10
1905.0031165952846
20
-3086.0996235444104
30
0
11
2438.4015390884388
21
-3086.0996235444104
31
0
0
LINE
5
344
100
AcDbEntity
8
0
100
AcDbLine
10
685.802347051065
20
-2324.1018771256204
30
0
11
1219.2007695442194
21
-2324.1018771256204
31
0
0
LINE
5
345
100
AcDbEntity
8
0
100
AcDbLine
10
3124.1995108653527
20
-2324.1018771256204
30
0
11
3581.4069092649315
21
-2324.1018771256204
31
0
0
LINE
5
346
100
AcDbEntity
8
0
100
AcDbLine
10
914.4016709767028
20
-3047.9997362234712
30
0
11
457.20302312542765
21
-3047.9997362234712
31
0
0
LINE
5
347
100
AcDbEntity
8
0
100
AcDbLine
10
3810.0149837388744
20
-1752.6123178598311
30
0
11
3810.0149837388744
21
-1447.8132192923149
31
0
0
LINE
5
348
100
AcDbEntity
8
0
100
AcDbLine
10
2514.6013137303175
20
-2324.1018771256204
30
0
11
3047.9997362234712
21
-2324.1018771256204
31
0
0
LINE
5
349
100
AcDbEntity
8
0
100
AcDbLine
10
2514.6013137303175
20
-3086.0996235444104
30
0
11
3047.9997362234712
21
-3086.0996235444104
31
0
0
LINE
5
350
100
AcDbEntity
8
0
100
AcDbLine
10
3733.8064585486909
20
-2057.4114164273483
30
0
11
3810.0149837388744
21
-2057.4114164273483
31
0
0
SPLINE
5
351
100
AcDbEntity
8
0
100
AcDbSpline
70
1064
71
3
72
8
73
4
74
0
42
0.000000001
43
0.0000000001
44
0.0000000001
40
0
40
0
40
0
40
0
40
1
40
1
40
1
40
1
10
3810.0062331905692
20
-2705.1007503350174
30
0
10
3810.0062331905692
20
-2578.7428328076003
30
0
10
3912.2476395887925
20
-2476.5014264093784
30
0
10
4038.6055571162065
20
-2476.5014264093784
30
0
0
LINE
5
352
100
AcDbEntity
8
0
100
AcDbLine
10
3733.8064585486909
20
-3314.7164485666581
30
0
11
3733.8064585486909
21
-3009.9085994508373
31
0
0
LINE
5
353
100
AcDbEntity
8
0
100
AcDbLine
10
4114.805331758087
20
-2362.2017644465595
30
0
11
4267.2048810418428
21
-2362.2105149948648
31
0
0
SPLINE
5
354
100
AcDbEntity
8
0
100
AcDbSpline
70
1064
71
3
72
17
73
13
74
0
42
0.000000001
43
0.0000000001
44
0.0000000001
40
0
40
0
40
0
40
0
40
1
40
1
40
1
40
2
40
2
40
2
40
3
40
3
40
3
40
4
40
4
40
4
40
4
10
1409.7045814230696
20
-4876.8030781768757
30
0
10
1409.7045814230696
20
-4897.8481468509372
30
0
10
1392.6453875020386
20
-4914.9117160461237
30
0
10
1371.60469410213
20
-4914.9117160461237
30
0
10
1350.5596254280699
20
-4914.9117160461237
30
0
10
1333.5004315070382
20
-4897.8481468509372
30
0
10
1333.5004315070382
20
-4876.8030781768757
30
0
10
1333.5004315070382
20
-4855.7580095028188
30
0
10
1350.5596254280699
20
-4838.7031908559375
30
0
10
1371.60469410213
20
-4838.7031908559375
30
0
10
1392.6453875020386
20
-4838.7031908559375
30
0
10
1409.7045814230696
20
-4855.7580095028188
30
0
10
1409.7045814230696
20
-4876.8030781768757
30
0
0
LINE
5
355
100
AcDbEntity
8
0
100
AcDbLine
10
3810.0149837388744
20
-4229.1137442692088
30
0
11
3733.8064585486909
21
-4229.1137442692088
31
0
0
LINE
5
356
100
AcDbEntity
8
0
100
AcDbLine
10
4114.805331758087
20
-2362.2017644465595
30
0
11
4114.805331758087
21
-2438.4015390884388
31
0
0
LINE
5
357
100
AcDbEntity
8
0
100
AcDbLine
10
3733.8064585486909
20
-4533.9128428367267
30
0
11
3733.8064585486909
21
-4229.1137442692088
31
0
0
SPLINE
5
358
100
AcDbEntity
8
0
100
AcDbSpline
70
1064
71
3
72
17
73
13
74
0
42
0.000000001
43
0.0000000001
44
0.0000000001
40
0
40
0
40
0
40
0
40
1
40
1
40
1
40
2
40
2
40
2
40
3
40
3
40
3
40
4
40
4
40
4
40
4
10
2400.3016517674992
20
-4876.8030781768757
30
0
10
2400.3016517674992
20
-4897.8481468509372
30
0
10
2383.2424578464679
20
-4914.9117160461237
30
0
10
2362.2017644465595
20
-4914.9117160461237
30
0
10
2341.156695772499
20
-4914.9117160461237
30
0
10
2324.0975018514673
20
-4897.8481468509372
30
0
10
2324.0975018514673
20
-4876.8030781768757
30
0
10
2324.0975018514673
20
-4855.7580095028188
30
0
10
2341.156695772499
20
-4838.7031908559375
30
0
10
2362.2017644465595
20
-4838.7031908559375
30
0
10
2383.2424578464679
20
-4838.7031908559375
30
0
10
2400.3016517674992
20
-4855.7580095028188
30
0
10
2400.3016517674992
20
-4876.8030781768757
30
0
0
LINE
5
359
100
AcDbEntity
8
0
100
AcDbLine
10
4114.805331758087
20
-4914.9029654978176
30
0
11
3962.4057824743277
21
-4914.9029654978176
31
0
0
LINE
5
360
100
AcDbEntity
8
0
100
AcDbLine
10
3962.4057824743277
20
-2438.4015390884388
30
0
11
3962.4057824743277
21
-2362.2017644465595
31
0
0
LINE
5
361
100
AcDbEntity
8
0
100
AcDbLine
10
3733.8064585486909
20
-2057.4114164273483
30
0
11
3733.8064585486909
21
-1752.6123178598311
31
0
0
LINE
5
362
100
AcDbEntity
8
0
100
AcDbLine
10
3733.8064585486909
20
-3924.3146457016946
30
0
11
3733.8064585486909
21
-3619.5155471341764
31
0
0
LINE
5
363
100
AcDbEntity
8
0
100
AcDbLine
10
3810.0149837388744
20
-2362.2105149948648
30
0
11
3810.0149837388744
21
-2057.4114164273483
31
0
0
SPLINE
5
364
100
AcDbEntity
8
0
100
AcDbSpline
70
1064
71
3
72
8
73
4
74
0
42
0.000000001
43
0.0000000001
44
0.0000000001
40
0
40
0
40
0
40
0
40
1
40
1
40
1
40
1
10
4267.1961304935385
20
-2705.1007503350174
30
0
10
4267.1961304935385
20
-2578.7428328076003
30
0
10
4164.954724095317
20
-2476.5014264093784
30
0
10
4038.6055571162065
20
-2476.5014264093784
30
0
0
LINE
5
365
100
AcDbEntity
8
0
100
AcDbLine
10
3733.8064585486909
20
-3924.3146457016946
30
0
11
3810.0149837388744
21
-3924.3146457016946
31
0
0
LINE
5
366
100
AcDbEntity
8
0
100
AcDbLine
10
3810.0149837388744
20
-1752.6123178598311
30
0
11
3733.8064585486909
21
-1752.6123178598311
31
0
0
LINE
5
367
100
AcDbEntity
8
0
100
AcDbLine
10
3810.0149837388744
20
-1143.0141207247984
30
0
11
3810.0149837388744
21
-838.21502215728128
31
0
0
LINE
5
368
100
AcDbEntity
8
0
100
AcDbLine
10
3733.8064585486909
20
-1447.8132192923149
30
0
11
3733.8064585486909
21
-1143.0141207247984
31
0
0
LINE
5
369
100
AcDbEntity
8
0
100
AcDbLine
10
3810.0149837388744
20
-3009.9085994508373
30
0
11
3733.8064585486909
21
-3009.9085994508373
31
0
0
LINE
5
370
100
AcDbEntity
8
0
100
AcDbLine
10
4114.805331758087
20
-4838.7031908559375
30
0
11
4114.805331758087
21
-4914.9029654978176
31
0
0
LINE
5
371
100
AcDbEntity
8
0
100
AcDbLine
10
3733.8064585486909
20
-838.21502215728128
30
0
11
3810.0149837388744
21
-838.21502215728128
31
0
0
LINE
5
372
100
AcDbEntity
8
0
100
AcDbLine
10
3810.0149837388744
20
-3009.9085994508373
30
0
11
3810.0149837388744
21
-2705.1007503350174
31
0
0
SPLINE
5
373
100
AcDbEntity
8
0
100
AcDbSpline
70
1064
71
3
72
8
73
4
74
0
42
0.000000001
43
0.0000000001
44
0.0000000001
40
0
40
0
40
0
40
0
40
1
40
1
40
1
40
1
10
4267.1961304935385
20
-304.79909856751658
30
0
10
4267.1961304935385
20
-178.44118104010107
30
0
10
4164.954724095317
20
-76.199774641879173
30
0
10
4038.6055571162065
20
-76.199774641879173
30
0
0
LINE
5
374
100
AcDbEntity
8
0
100
AcDbLine
10
4114.805331758087
20
-4838.7031908559375
30
0
11
4267.2048810418428
21
-4838.7119414042427
31
0
0
LINE
5
375
100
AcDbEntity
8
0
100
AcDbLine
10
3962.4057824743277
20
-4914.9029654978176
30
0
11
3962.4057824743277
21
-4838.7031908559375
31
0
0
LINE
5
376
100
AcDbEntity
8
0
100
AcDbLine
10
1866.8988540001915
20
-76.199774641879173
30
0
11
1866.8988540001915
21
-2031.9999694824219
31
0
0
LWPOLYLINE
5
377
100
AcDbEntity
8
0
100
AcDbPolyline
90
4
70
1
43
0.0
10
3225.9671774529966
20
-1519.6049825570008
10
890.27748019740989
20
-430.45498965299259
10
678.96834932706042
20
-883.60888317131776
10
3014.6580465826469
20
-1972.7588760753258
0
LINE
5
378
100
AcDbEntity
8
0
100
AcDbLine
10
1770.9082034751323
20
-5485.5376398606331
30
0
11
1445.3392998803429
21
-5485.4806747779367
31
0
0
ENDSEC
0
SECTION
2
OBJECTS
0
DICTIONARY
5
C
100
AcDbDictionary
3
ACAD_GROUP
350
D
3
ACAD_MLINESTYLE
350
17
0
DICTIONARY
5
D
100
AcDbDictionary
0
DICTIONARY
5
1A
330
C
100
AcDbDictionary
0
DICTIONARY
5
17
100
AcDbDictionary
0
ENDSEC
0
EOF
